viernes, 22 de mayo de 2009

Fallout - John Frusciante.

Verse.

--------------8-10----
-------6--------------
-----9-----10---------
---7-----8------------
-5--------------------
----------------------

x Repeat

Bridge.

Gm F C A# Gm F
-----6-----------------------------------------------
-------8---------10-----5-------3---------3-------1--
---7----------10----------5-------3-----3-------2----
-5---------10---------5-------3-------5--------------
---------8----------3-------1-----------------3------
------------------------------------3-------1--------

C Gm A# F C Gm
-----------------------------------------------------
-------5-------3-------3---------------5-------3-----
-----5-------3-------3---------1-----5-------3-------
---5-------5-------3---------2-----5-------5---------
-3---------------1---------3-----3-------------------
---------3---------------1---------------3-----------


Chorus.

Dm F C Gm
-----5--------1-------------3-3-3-3--3----
-----6--------1--------5----3-3-3-3--3----
-----7--------2--------5----3-3-3-3--3----
-----7--------3--------5----5-5-5-5--5----
-5-5-5--------3----3-3-3----5-5-5-5--5----
----------1-1-1-------------3-3-3-3--3----

x Repeat



End.

--------------8-10----
-------6--------------
-----9-----10---------
---7-----8------------
-5--------------------
----------------------

x Repeat



Video Tutorial.

http://www.jftab.com/htm/tab/Fallout.html

0 comentarios:

Publicar un comentario en la entrada

Twitter Facebook Digg Stumbleupon Favorites

 
Powered by Blogger